Voodoo child - Jimi Hendrix

  
|---------------------------------|
|---------------------------------|
|---------------------------------|
|-----------0-0-0-0-0-0-0---------|
|-------------------------0-0-0-0-|
|-0--3--0-------------------------|
           
|---------------------------------|
|---------------------------------|
|---------------------------------|
|-----------0-0-0-0-0-0-0---------|
|-------------------------0-0-0-0-|
|-0--3--0-------------------------|
 
 
no chords 
E|------------|------------|-------------|---------|
B|------------|------------|-------------|---------|
G|-9---------7|------------|-9----------9|--9-7----|PLAY THESE 4 BARS
D|----7---9---|----------7-|----9---9----|---------|3 TIMES THEN PLAY
A|------------|-10--10-----|-------------|---------|
E|------------|------------|-------------|---------|

E|--------------|--------------|---------------|--------------|
B|--------------|--------------|---------------|-12-----12----|
G|-9---------7--|--------------|-9----------9--|--------------|
D|----7---9-----|----------7---|----9---9------|--------------|
A|--------------|-10--10-------|---------------|--------------|
E|--------------|--------------|---------------|--------------| 

AD-LIB SOME JIMI STYLE LEAD GUITAR
 
       E7
Well, I stand up next to a mountain
 E7
And I chop it down with the edge of my hand.
E7
Well, I stand up next to a mountain,
E7
Chop it down with the edge of my hand.
E7       B7
Well, I pick up all the pieces and make an island,
A7                             E7
Might even raise just a little sand.
E7          C              D
Cause Im a voodoo child,
D                E7
Lord knows Im a voodoo child, baby.

         E7
I didn't mean to take up all your sweet time,
E7
Ill give it right back to you one of these days.
E7
I said I didn't mean to take up all your sweet time,
E7
Ill give it right back one of these days.
E7       B7
And if I don't meet you no more in this world
A7                             E7
Then I'll meet you in the next one and don't be late, 
don't be late.
E7         C       D      C    D
Cause Im a voodoo child, voodoo child,
D                 E7
Lord knows Im a voodoo child, hey hey hey.
      C      D
Im a voodoo child, baby.