1/08/24

Siempre estás allí - Barón Rojo

Siempre estás allí

(Letra con acordes de Barón Rojo)

Barón Rojo España: Bandera España
Género: Heavy metal
Álbum: Metalmorfosis
Publicado: 1983

Acordes: 12 Dificultad: Alta

ACORDES

Acorde A Acorde G Acorde Dm Acorde Dm/C Acorde G7 Acorde C Acorde F Acorde Gm Acorde A# Acorde A7 Acorde C/E Acorde Am


Intro:
   Guitarra 1: F C Gm Dm
e|-12-13--12-13--12-13-12--13-12--13-12--13----15-13-12h13h12-------12----|
B|------10-----10---------------------------15~---------------15-13----15~|
G|------------------------------------------------------------------------|
D|------------------------------------------------------------------------|
A|------------------------------------------------------------------------|
E|------------------------------------------------------------------------|
Guitarra 2:
e|------------------------------------------------------------------------|
B|-8--10--8--8-10---8-10--8~~-10--8~~--10--8--10----11-10h11p10-8------8--|
G|------10~~-----10------------------------------10~~-------------10-9---7|
D|------------------------------------------------------------------------|
A|------------------------------------------------------------------------|
E|------------------------------------------------------------------------|
Guitarra 1: F C Gm A
e|-12-13--12-13---12-13-12-13-12---13-12-13----15-13-12h13h12-------------|
B|------10-----10---------------------------15~---------------15-13-------|
G|------------------------------------------------------------------15-14-|
D|------------------------------------------------------------------------|
A|------------------------------------------------------------------------|
E|------------------------------------------------------------------------|
Guitarra 2:
e|------------------------------------------------------------------------|
B|8-10---8-8-10---8-10-8~-10-8~-10-8~-10---11-10h11p10--------------------|
G|----10~------10~----------------------10~------------12-10h12p10-9------|
D|-------------------------------------------------------------------12-11|
A|------------------------------------------------------------------------|
E|------------------------------------------------------------------------|
Intro 2ª: Arpegios sonido limpio: A#6* C9* Dm (x2) Estrofa 1 (Arpegios indicados en la nota arriba con sonido limpio): Dm Dm/C Llegó el final, cesó el clamor G7/B G7 La magia se desvaneció A#6* C9* Dm C Tus ojos siguen fijos sobre mi Dm Dm/C La fría luz de un pabellón G7/B G7 Sobre un mar de cristales rotos A#6* C9* Dm C Y un náufrago se ahoga en un rincón Estribillo (Entra distorsión): F Y mi hogar vuelve a ser C Gm Dm En cualquier lugar cualquier hotel F Dejo atrás la ciudad C Gm A Dime tu ésta noche ¿A dónde irás? Estrofa 1: (Se toca igual que estrofa 1): La actuación me hace vibrar Y el escenario es un volcán Que brama con sonido atronador Bañado por sudor y luz Te busco entre la multitud Por qué yo sé que siempre estás allí Estribillo: Y mi hogar vuelve a ser En cualquier lugar cualquier hotel Dejo atrás la ciudad Dime tu ésta noche ¿a dónde irás? Estrofa 2: A# Dm Descenderás al reino de la oscuridad A# G Sigue buscando una "escalera al cielo" A# Dm Dime si habrá alguien que te espere A# O solamente mientras te duermes G C Dm Los ojos de tus héroes te miran desde la pared Solo y Arpegios: (Dm Dm/C G7/B G7 A#6* C9* Dm C) x4 Intro con punteos de nuevo: F C Gm Dm F C Gm A Repetir Estrofa 2 Estrofa 1: Volvió el clamor no habrá final La magia no se romperá Todo está bien si tú estás aquí Oh, si tú estás aquí. F C A# F A7 Dm No habrá final, no habrá final porque yo sé C F C/E Dm Am A# F Gm A que siempre estás allí ooooooooooooooooooooh F C A# F A7 Dm C F C/E Dm Am A# F Gm A (Repetir acordes y fade out)
LO MÁS VISTO