1/08/24

Concierto para ellos - Barón Rojo

Concierto para ellos

(Letra con acordes de Barón Rojo)

Barón Rojo España: Bandera España
Género: Heavy metal
Álbum: Volumen brutal
Publicado: 1982

Acordes: 6 Dificultad: Baja

ACORDES

Acorde Em Acorde D Acorde A Acorde C Acorde G Acorde B


INTRO:
	
   Em   D                Em       D
4-------------------------------------4-5-7-4-----/
5--7-5-7-5---------------5...-7-5-7-5---------5---/x 2 
6----------7--6--5--3--0------------------------7-/
Em                                       
Otra vez aquí, sintonízanos,                                           
                           D
ven y enróllate dice un locutor
              A             C
Y en la noche suena el heavy rock.
Em
Después de un café vuelves a fumar
               D
Luego AC/DC tocarán
              A           C
Las campanas negras del infierno

Em        G        A   B
En cada concierto de rocanrol 
--4---------------------------
--5--------5---------5--------
--6----- 7---7--5--7---5--7---
Em          G      A      B
Las campanas doblan por Bob Scott-
-4------------------------
--5-----5---------5--------
--6-- 7----7--5--7--5--7---
Em                   
Por Janis, Lennon, Allman, Hendrix
G            A       B
Bolan, Bonham, Brian y Moon
--4--------------------------------------------------
--5------2--1--2--3--2--1--2--3-/--2--1--2--3--2--0--
--6-------------------------------------------------3
Em                   
Por Janis, Lennon, Allman, Hendrix
G            A       B
Bolan, Bonham, Brian y Moon-
-4--------------------------------------------------
--5------2--1--2--3--2--1--2--3-/--2--1--2--3--2--0--
--6-------------------------------------------------3
(Luego sigue todo igual)

Sientes un rumor de un oscuro mar
Duerme alrededor la ciudad
Las sirenas lloran cuídate, no te dejes atrapar.

Pides escuchar tal o cual canción
Whitesnake o Rainbow siempre rock
Las guitarras hablan para ti

En cada concierto de rocanrol
Las campanas doblan por Bob Scott
Por Janis, Lennon, Allman, Hendrix
Bolan, Bonham, Brian y Moon
Por Janis, Lennon, Allman, Hendrix
Bolan, Bonham, Brian y Moon

Solo guitarrero (E, D, A, C, varias veces)

Em        G      A     B
En cada concierto de rocanrol....
LO MÁS VISTO