Casi me mato - Barón Rojo

Barón Rojo, acordes de guitarraEspaña: Bandera España
Género: Heavy metal
Álbum: Metalmorfosis
Publicado: 1983

Acordes: 5 Dificultad: Baja

ACORDES

Acorde G para tocar la guitarra Acorde A para tocar la guitarra Acorde C para tocar la guitarra Acorde D para tocar la guitarra Acorde Bb para tocar la guitarra



INTRO y ESTRIBILLO
	
              G   A# G             G   A#  C
e-------------------------------------------------------
B-------------------------------------------------------
G-------------------------------------------------------
D-------------------------------------------------------
A-------------5-5-5/8-5-5-5-------------5-5-5/8-8/10----
E--3-6-3-6-3--3-3-3/6-3-3-3--3-6-3-6-3--3-3-3/6-6/-8----
              P.M..   .....             P.M...

  Casi me mato   ¡Babe!     Casi me mato    ¡Babe!


ESTROFA      C (ritmo de rock and roll)
	
e-----------------------------------------|
B-----------------------------------------|
G-----------------------------------------|
D----5--5--7--5--5--7--5--5--7--5---------|
A----3--3--3--3--3--3--3--3--3--3---------|
E-----------------------------------------|
     P.M.........................
Un día de tantos me sentí muy mal
Y decidí que me iba a suicidar
	
e-----------------------------------------|
B-----------------------------------------|
G-----------------------------------------|
D-----------------------------------------|
A----5--5--5--5--7--5--5--5--5------------|
E----3--3--3--3--3--3--3--3--3--6-3-------|
     P.M......................
     Iba como loco,
     Iba como loco.

D                             A#               C
Pero un colega tocaba un rock, y aquel mal rollo se me pasó

ESTRIBILLO (Con el rift de la Intro)
Casi me mato, Babe
Casi me mato, Babe

La intro del principio no la he sacado, pero se hace con el Slade
supongo que sobre el tono de C, al igual que si queréis improvisar
un solo, también en la escala de C

Esta es la transcripción anterior de la que me he basado, los acordes
están bien, lo que he hecho es agregar los rifts y darles algunos
retoques para que quede un poco más clara la historia.


CASI ME MATO

Intro:
G  -  Bb  -  G

G  -  Bb  -  C

C
Un día de tantos me sentí muy mal y decidí que me iba a suicidar
G
IBA COMO LOCO, IBA COMO LOCO
C
Bajo las ruedas me quise tirar y el metro no acababa de llegar
G
IBA COMO LOCO, IBA COMO LOCO
D                           Bb                 C
Pero un colega tocaba un rock y aquel mal rollo se me pasó
        G   Bb   G            G    Bb   C
CASI ME MATO  BA....BE,    CASI ME MATO   BA....BE
        G   Bb   G            G    Bb   C
CASI ME MATO  BA....BE,    CASI ME MATO   BA....BE
C
Cogí mi bólido y lo puse a cien un Kamikaze yo quería ser
G
IBA COMO LOCO, IBA COMO LOCO
C
El ocho y medio no tiraba más y se empezó a desarmar
G
IBA COMO LOCO, IBA COMO LOCO
D                   Bb                       C
Y para colmo recordé que había un concierto y ya eran las diez

CASI ME MATO BABE, CASI ME MATO BABE
CASI ME MATO BABE, CASI ME MATO BABE

SOLO

C
De vuelta a casa vi la solución lo mas seguro es la televisión
G
IBA COMO LOCO, IBA COMO LOCO
C
Con una dosis de publicidad es suficiente para palmar
G
IBA COMO LOCO, IBA COMO LOCO
D                        Bb                        C
Pero confieso que desistí, lo del suicidio no es para mí
CASI ME MATO  BABE, CASI ME MATO BABE
CASI ME MATO BABE, CASI ME MATO BABE.