Chiquitita - Abba

Abba, acordes de guitarraSuecia: Bandera Suecia
Género: Pop
Álbum: Voulez-Vous
Publicado: 1979

Acordes: 7 Dificultad: Baja

ACORDES

Acorde Asus4 para tocar la guitarra Acorde A para tocar la guitarra Acorde E para tocar la guitarra Acorde D para tocar la guitarra Acorde E7 para tocar la guitarra Acorde C#m para tocar la guitarra Acorde Esus4 para tocar la guitarra


 ----------------------------------------------------------------------
 ---2---3---5---7---9---10--10/12~--10---------9---7---9---10---7---5--
 --2---4---6---7---9---11---11/13~--11--------9---7---9---11---7---4---
 -----------------------------------------------------------------6----
 ----------------------------------------------------------------------
 ----------------------------------------------------------------------
Los acordes no son muy difíciles, si le ponen atención al video los pueden saca
Todos son un arpegio que se oye bien en la 2,3,4 cuerda.

       Asus4          A    Asus4   A

Chiquitita, dime porqué 

                     E
tu dolor hoy te encadena.

E       D       E       E7             A       Asus4    A
E-e-e-e-n tus ojos hay una sombra de gran pena.

          Asus4      A     Asus4   A
No quisiera verte así, 

     Asus4     C#m          C#add9   C#m     C#add9
aunque quieras disimularlo.

E       D     E        E7      A           Asus4        A
Si-i-i-i es que tan triste estás, para qué quieres callarlo.

        Asus4      A   Asus4   A
Chiquitita, dímelo tú, 

                    E     Esus4   E
en mi hombro aquí llorando.

E    D        E           E7     A          Asus4    A
Cuenta conmigo ya, para así seguir hablando.

          Asus4    A     Asus4   A
Tan segura te conocí, 

                  C#m       C#add9  C#m    C#add9
y ahora tu ala quebrada.

E     D        E         E7          A
Déjamela arreglar, yo la quiero ver curada.


CORO:

//AQUI SE DEJA EL ARPEJEO...

                      D
Chiquitita sabes muy bien 
                       
                                    A
que las penan vienen y van y desaparecen.


                  E       D       E  
Otra vez vas a bailar, y serás feliz,

        E7           A
como flores que florecen.

                         D
Chiquitita, no hay que llorar, 

                                       A
las estrellas brillan por ti allá en lo alto.

                    E       D     E  
Quiero verte sonreír, para compartir, 

         E7      A
tu alegría, chiquitita.

     E          D      E        E7      A
Otra vez quiero compartir tu alegría, chiquitita.


Una pausa y comienza el arpegio de nuevo.

Así es toda la canción.... no está muy difícil, lo que a mí se me hace difícil

Estas son las pisadas más raras, pero no están difíciles...
C#m     C#add9   Esus4   E7   Asus4
 --4--------4-------0-----0------0-----------------------------------------
 --5--------4-------0-----3------3-----------------------------------------
 --6--------6-------2-----1------2-----------------------------------------
 --6--------6-------2-----0------2-----------------------------------------
 --4--------4-------2-----2------0-----------------------------------------
 -------------------0-----0------------------------------------------------