Días distintos - Andrés Calamaro

Andrés Calamaro, acordes de guitarraArgentina: Bandera Argentina
Género: Rock
Álbum: El salmón
Publicado: 2000

Acordes: 0 Dificultad: Baja

E||----5-6--5-6~------------6-5---6-5~-----------|
B||--8-------------------8------8----------------|
G||----------------------------------------------|
D||----------------------------------------------|
A||----------------------------------------------|
E||----------------------------------------------|

E||----5-6-5----------------6-5---5-6-6-3~-------|
B||--8-------8-4~--------8------8----------------|
G||----------------------------------------------|
D||----------------------------------------------|
A||----------------------------------------------|
E||----------------------------------------------|

E||----5-6--5-6~------------6-5---6-5~-----------|
B||--8-------------------8------8----------------|
G||----------------------------------------------|
D||----------------------------------------------|
A||----------------------------------------------|
E||----------------------------------------------|

E||----5-6-5----------------6-5---5-6-6-3~-------|
B||--8-------8-4~--------8------8----------------|
G||----------------------------------------------|
D||----------------------------------------------|
A||----------------------------------------------|
E||----------------------------------------------|