El mundo al revés - Amaral

Amaral, acordes de guitarrapara tocar en guitarra, tablaturas y canciones en acordes de guitarra

Acorde F para tocar la guitarra Acorde E para tocar la guitarra Acorde A# para tocar la guitarra Acorde C para tocar la guitarra Acorde D para tocar la guitarra



INTRODUCCIÓN (2X)
             
E||-----------|-------------|------------|------------|
B||---1-----1-|---1------1--|---1-----1--|---1-----1--|
G||--2---0---2|--2----0---2-|--3---3---3-|--3---3---3-|
D||-3---3-3---|-3----3-3---3|-3---3-3---3|-3---3-3----|
A||-----------|-------------|------------|------------|
E||-----------|-------------|------------|------------| 

Esto se repite en los versos 1 y 2.

VERSO 1:

F E                                     A# 
Esta es la historia, es la verdadera historia
                                F E
Del mundo al revés, hierba roja verdes amapolas
                            A# 
Flores de alambre, flotando en el estanque

No me dejan ver, lo que ocurre fuera de él.

PARTE 1:
  
E||------------|------------|------------|------------|
B||---1-----1--|---1-----1--|---1-----1--|---1-----1--|
G||--0----0--0-|--0----0--0-|--3----3--3-|--3---3---3-|
D||-2----2-2---|-2----2-2---|-3----3-3---|-3---3-3----|
A||------------|------------|------------|------------|
E||------------|------------|------------|------------|

E||------------|------------|------------|------------|
B||---1-----1--|---1-----1--|---1-----1--|---1-----1--|
G||--0----0--0-|--0----0--0-|--3----3--3-|--0---0---0-|
D||-2----2-2---|-2----2-2---|-3----3-3---|-2---2-2----|
A||------------|------------|------------|------------|
E||------------|------------|------------|------------|

Esto se repite en la parte 1 y 2

C E                               A#        C E
Hay un pez persiguiendo a un pescador,   uuuuuhhhh
                          A#         C 
Si él no pica el anzuelo lo haré yooooooooooooooo

ESTRIBILLO:
D E            C E               A#
Esta es la historia del mundo al revés mi corazón, ooooooohhh

D E        C E           A#                 F E
Es un coche, de carreraaas, y nunca llega
  
E||------------|-----------|
B||---1-----1--|--1-----1--|
G||--2---0---2-|-2---0---2-|
D||-3---3-3----|3---3-3----|
A||------------|-----------|
E||------------|-----------|
VERSO 2:
F E                                  A# 
Esta es la historia, la disparatada historia
                                F E
Del mundo al revés, hierba roja verdes amapolas
                                   A# 
Si la Tierra viaja grande, como un iceberg gigante

Qué importancia tiene ir detrás o ir delante.

PARTE 2:
C E                          A#           C E
Hay un gato huyendo de un ratón, uuuuuuuuuuuh
                        A#   C E
Quién pondrá el cascabel al roedooooooor

ESTRIBILLO:
D E            C E               A# 
Esta es la historia del mundo al revés mi corazón, ooooooohhh

D E        C E           A#                 F E
Es un coche, de carreraaas, y nunca llegaa

PUENTE:
Se hace ahora la introducción y luego lo de las partes 1 y 2.

F E      A#         F E      A# 
ooooohhhh mi corazón oooooooohh mi corazón ooooooohhh

C E                         A# 
Hoy la cola mordió a la pescadilla
                             C E
las verdades parecen ser mentiras,
                           A# 
cada año que pasa soy más cría,
                C E
llegaré a ser recién nacida

ESTRIBILLO:
D E            C E               A# 
Esta es la historia del mundo al revés mi corazón, ooooooohhh

D E        C E           A# 
Es un coche, de carreraaas, pero nunca, nunca llegaa

D E        C E           A# 
En este circuito, el surco de un disco, la cara A, la cara B,

D E        C E           A# 
es la misma cantinela, pero nunca, nunca llegará

F E      A#         F E      A# 
ooooohhhh mi corazón oooooooohh mi corazón ooooooohhh

(Y hasta el final silencio.)