Deportivo Palofumeque C.F. - Porretas

Porrestas, ver letras traducidas y acordes de guitarrapara tocar en guitarra, tablaturas y canciones en acordes de guitarra


INTRODUCCION:
e [-----------------------------------------------------------------
B [-----------------------------------------------------------------
G [-----------------------------------------------------------------
D [-----------------------------------------------------------------
A [---------4--4--5--5--7--7------4--4--5--5-------4--4--5--5--7--7-
E [-5--5---------------------5--5-------------5--5------------------
ESTROFAS:

Mientras canta hace un punteo 
con las cuerdas al aire:

e [-----------------------------------------------
B [-----------------------------------------------
G [-----------------------------------------------
D [--------------------0-0-0-0--------------------
A [--------0-0-0-0-----------------------0-0-0-0--
E [------------------------------0-0-0-0----------
 (El punteo comienza en cada *  y acaba en cada +)


*Tenemos un equipazo que tiene por reglamento+ 

*no tener ni puta idea lo que es un entrenamiento+

*quedamos para jugar los domingos por la mañana+ 

*pero si no hay balón nos vamos todos de cañas+

(Entre la primera estrofa y la segunda
va la introducción, pero sólo una vez. D 

ESTRIBILLO:

     D5   A5    E5    A5     D5     A5     E5   A5 
e [--------------------------------------------------------------------
B [--3-------------------------3---------------------------------------
G [--2-----2------------2-----2-----2-------------2--------------------
D [--0-----2-----2-----2-----0-----2------2------2---------------------
A [--------0-----2-----0------------0------2-----0---0-0-0-0-0-0-0-0-0-
E [---------------0--------------------------0-------------------------


e [----------------------------------------------------------
B [-----3-----------------------------3----------------------
G [-----2-----2------------2---------2-----2-------------2---
D [-----0-----2-----2-----2---------0-----2------2------2----
A [-----------0-----2-----0----------------0------2-----0----
E [------------------0------------------------------0--------