Cuatro rosas - Gabinete Caligari

Gabinete caligari, ver letras traducidas y acordes de guitarrapara tocar en guitarra, tablaturas y canciones en acordes de guitarra

Acorde Eb para tocar la guitarra Acorde F para tocar la guitarra Acorde Bb para tocar la guitarra Acorde G# para tocar la guitarra



Intro:

 Eb F Bb
 Eb F Bb
 Eb F Bb
 G# Bb Eb F

 Eb F Bb Eb
 Eb F Bb

 Intro

 6-------------------------------------------------------------------------
 5-------------------------------------------------------------------------
 4-------------------------------------3--------3--------3--------3--------
 3--5--3--5--3-3------0---1---3s5--3-5---3--3-5------3-5------3-5---1--3s5-
 2----------------1-------------------------------1--------1---------------
 1-------------------------------------------------------------------------

 cont.

 6-------------------------------------------------------------------------
 5-------------------------------------------------------------------------
 4-----3----------3-----------3---------3---1h3s5-----------3--------3-----
 3-3-5---3---3-5---------3-5--------3-5-----------------3-5---1--3--5---3--
 2------------------1-----------1-------------------1----------------------
 1-------------------------------------------------------------------------


 6-------------------------------------------------------------------------
 5-------------------------------------------------------------------------
 4------------------------------------3---------3--------------------------
 3-3h5--3--5--3-3-----0--1--3s5--3-5----3--3-5-------3-5--3-----3-5--3-----
 2-----------------1------------------------------1----------1-------------
 1-------------------------------------------------------------------------


 Eb          F             Bb
 Hay cuatro rosas en tu honor
 Eb          F          Bb
 dentro del vaso que te doy.
 G#            Bb
 Dos son por gemir,
 Eb           F
 dos por sonreír.
 Eb          F     Bb  Eb
 Hay cuatro rosas para ti.

 Eb F Bb

 Eb          F         Bb
 Toma mi vaso y bebe en él
 Eb          F         Bb
 las cuatro rosas que te doy.
 G#         Bb
 Son del color
 Eb               F
 de tu ropa interior
 Eb          F     Bb  Eb
 y huelen a rosas como tu.

 Eb F Bb
 Eb F Bb

 Solo de trompeta

 G# Bb Eb F
 Eb F Bb Eb
 Eb F Bb

 Eb          F         Bb
 Hay cuatro rosas en tu honor
 Eb          F         Bb
 y en la botella cuatro mas.
 G#         Bb
 Bebe, mi amor.
 Eb          F
 Esta es tu flor.
 Eb    F       Bb
 Toma mis cuatro rosas.
 Eb    F        Bb
 Bebe mis cuatro rosas
 Eb            F        Bb   Eb
 y olvida otras cosas que te di.