Entre dos aguas - Paco de Lucia


ACORDES: LAm7 SIm7 SI7

INTRO:
e:-------------------------------------------------------------|
B:-------------------------------------------------------------|
G:-------------------------------------------------------------|
D:-------------------------------------------------------------|
A:--0-----0-----0-1-2-----2-----2-1-0-----0-----0-1-2-----2----|
E:-----0-----0---------2-----2---------0-----0---------2-----2-|

PUNTEO A: (2 VECES)
e:-3-3-2-0----------0-2-3-5-3-2-0-2-0----0-2-3-2-0-------------2h0---2h0-|
B:--------3-3-1--1-3-----------------3--3---------3-3-1--0-1-3----4-----4|
G:-----------------------------------------------------------------------|
D:-----------------------------------------------------------------------|
A:-----------------------------------------------------------------------|
E:-----------------------------------------------------------------------|

PUNTEO B:
e:--3-3-2-5-3-7-5-8-7-10-8-7-------------------------------2h0---2h0--|
B:--------------------------10-8-7h8--------7--8-7------------4-----4-|
G:----------------------------------9-7--7-9-------9-7-7--------------|
D:------------------------------------------------------10------------|
A:--------------------------------------------------------------------|
E:--------------------------------------------------------------------|


ACOMPAÑAMIENTO:
suena muy bien si una guitarra toca el punteo mientras la otra hace esto:

LAm7 SIm7 LAm7 SI7