Cien gaviotas - Duncan Dhu

 
Antes de empezar os debo advertir que
este tema va con cejilla.Mejor usar una metálica
que el propio dedo y hay que ponerla en
el segundo traste:
e|----|-2-|-----------
B|----|-2-|-----------
G|----|-2-|-----------
D|----|-2-|-----------
A|----|-2-|-----------
E|----|-2-|-----------
 
Ahora vamos con los acordes:
Tenemos que interpretar que
la guitarra empieza aquí,
por lo que serían...

Sol(G),Do(C),La(A),Mim(Em),Re(D)
y Resus4(Dsus4 unir el Re con el Sol)
  G    C    A    Em   D  Dsus4
e-5----2----2----2----4----5--
B-2----3----4----2----5----5--
G-2----2----4----2----4----4--
D-2----4----4----4----2----2--
A-4----5----2----4----2----2--
E-5---------2-----------------
 
para tocar los acordes usaremos estos estilos...
(T:todos los dedos hacia abajo
P:pulgar hacia arriba)
1.T, T,P,T, T,P,T, T,P,T,P
2.T,P,T, P,T,P, T,P,T, P,T,P,
3.T,P,T, P,T,P,

INTRODUCCIÓN:
(DESPACIO)G(1.),C(1.)G(1.),C(T)
...y ahora rápido
G(2.),C(2.)x2
D(3.),Dsus4(3.)D(3.),Dsus4,D(3.)

A(3)       Em(3.)    C(2.)...
Hoy el viento sopla más de lo normal,
A          Em     C
las olas intentando salirse del mar,
A Em C
el cielo es gris y tu no lo podrás cambiar,
A        Em          C
mira hacia lo lejos busca otro lugar
C(2.)            G(2.)
y cien gaviotas donde irán
C(2.)  G(2.) C(2.)
Donde irán
A            Em          C
Hoy nos has visto a nadie con quien derrumbar
   A       Em      C
los muros que gobiernan en esta ciudad
A            Em         C
Hoy nos has visto a nadie con quien disfrutar
  A         Em     C
placeres que tan solo tu imaginarás
C             G
y tus miradas donde irán
C    G   C D(3.),Dsus4(3.) D Dsus4
Donde irán

ESTRIBILLO:

G       D
Hoy podrás beber y lamentar
Em
que ya no volverán
C
sus alas a volar
             G
Cien gaviotas donde irán
·········Punteo··············
  G
e-9-12-12-12-12-12-12-12-9----
B---10-10-10-10-10-10-10------
G-----------------------------
D-----------------------------
A-----------------------------
E-----------------------------

  C (X2)
e----10-10-10-10-10-10-10-9---
B-10-12-12-12-12-12-12-12-----
G-----------------------------
D-----------------------------
A-----------------------------
E-----------------------------
 
A      Em          C
Hoy el día ya no es como los demás
A         Em           C
El ron y la cerveza harán que acabes mal.
A       Em    C
Nena ven conmigo déjate llevar
A      Em       C
Hoy te enseñare donde termina el mar
            G
Y cien gaviotas donde irán
C    G   C D Dsus4 D Dsus4
Donde irán

ESTRIBILLO.......Y PUNTEO

D Dsus4 D Dsus4 D G(T)