Tonight tonight - Smashing pumpkins


Riff 1

E --3--3--3--3--3--3--3--3--3--3--3--3--3--3--3--3--3--3--3--3--3--3--3--3--3--3--3--3--3--3--|
A --------------------------------------------------------------------------------------------|
D --------------------------------------------------------------------------------------------|
G --------------------------------------------------------------------------------------------|

E --0--0--0--0--0--0--0--0--0--0--0--0--0--0--0--0--0--0--0--0--0--0--0--0--0--0--0--0--0--0--|
A --------------------------------------------------------------------------------------------|
D --------------------------------------------------------------------------------------------|
G --------------------------------------------------------------------------------------------|

Riff 2

E ----------------------------------------------3--3--3--3--3--3--3--3--3--3--3--3--3--3--3---|
A --3----2---5----3-----2---5-----3-----2---5-------------------------------------------------|
D --------------------------------------------------------------------------------------------|
G --------------------------------------------------------------------------------------------|

Riff 3

E ------------------------------------------------------------0---3---|
A ---3------5------3------5------3------5------3------5---------------|
D --------------------------------------------------------------------|
G --------------------------------------------------------------------|

Riff 4

E ---3---2---0----------------3---2---0--------------|
A ----------------0------3----------------0------3---|
D ---------------------------------------------------|
G ---------------------------------------------------|

Riff 5

E ---------------------------------------------0--0--0--0--0--0--0--0--5--5--5--5--5--5--5--5-|
A ---3---2---5---3---2---5---3---2---5--------------------------------------------------------|
D --------------------------------------------------------------------------------------------|
G --------------------------------------------------------------------------------------------|

Riff 6

E -----------------3---2---0------------3---2---0------------3---2---0-----------3---2---0---|
A ---3---2---5----------------0---3-----------------0---3----------------0---3---------------|
D -------------------------------------------------------------------------------------------|
G -------------------------------------------------------------------------------------------|

E ------------3---2---0------------3---2---0---------------------3------2------0---|
A ---0---3-----------------0---3-----------------0------3--------------------------|
D ---------------------------------------------------------------------------------|
G ---------------------------------------------------------------------------------|

Riff 1 - x2
Riff 2 - x1
Riff 3 - x4
Riff 4 - x1
Riff 5 - x1
Riff 3 - x1
Riff 1 - x3
Riff 3 - x1
Riff 4 - x1 
Riff 5 - x1
Riff 6 - x1