Save your love - Kiss


 Tune Guitar Down 1/2 Step

Intro
     E5 E5 E5 E5  E5  D5  B5  D5
E------------------------------------------|
B------------------------------------------|
G----9--9---9--9---9---7-------7-----------|
D----9--9---9--9---9---7---9---7-----------|
A----7--7---7--7---7-------9---------------|
E------------------------------------------|

Verse#1
     A5                 A5 A5 D5                   D5 D5 
E---------------------------------------------------------|
B---------------------------------------------------------|
G------------------------------7--------------------7--7--|
D----7-------------------7--7--7--------------------7--7--|
A----7-------------------7--7--5--------------------5--5--|
E----5-------------------5--5-----------------------------|
        You were my woman         and I was your man

    A5                             D5                     A5
E-----------------------------------------------------------------|
B-----------------------------------------------------------------|
G-----------------------------------7--------------------7--7-----|
D----7------------------------7--7--7--------------------7--7--7--|
A----7------------------------7--7--5--------------------5--5--7--|
E----5------------------------5--5-----------------------------5--|
   You were good looking         You know I was your biggest fan

                        A5    D5                         D5
E------------------------------------------------------------|
B------------------------------------------------------------|
G------------------------------7-----------------------7--7--|
D------------------------7--7--7-----------------------7--7--|
A------------------------7--7--5-----------------------5--5--|
E------------------------5--5--------------------------------|
   You tried to teach me          Things I already knew

    A5                            A5   D5
E-----------------------------------------------------------------|
B-----------------------------------------------------------------|
G---------------------------------------7-------------------------|
D----7----------------------------7--7--7-------------------------|
A----7----------------------------7--7--5-------------------------|
E----5----------------------------5--5----------------------------|
 When you couldn't reach me  Girl I think you knew that we were
     A5       G5  C5   D5  E5 
E----------------------------------------------|
B----------------------------------------------|
G-----------------5----7---9---(9)-------------|
D----7--------5---5----7---7---(9)-------------|
A----7--------5---3----5---7---(7)-------------|
E----5--------3--------------------------------|
Through Baby it's over

Chorus
     A5             G5  C5              G5   D5             G5
E------------------------------------------------------------------|
B------------------------------------------------------------------|
G------------------------5--5--5--5---5------7--7--7--7---7--------|
D----7--7--7--7---7--5---5--5--5--5---5--5---7--7--7--7---7--5-----|
A----7--7--7--7---7--5---3--3--3--3---3--5---5--5--5--5---5--5-----|
E----5--5--5--5---5--3-------------------3-------------------3-----|

    C5              G5
E----------------------|
B----------------------|
G----5--5--5--5---5----|
D----5--5--5--5---5--5-|
A----3--3--3--3---3--5-|
E--------------------3-|