Maria Maria - Santana

  
bass tab

1-----------------------------------------------------------------
2-----------------------------------------------------------------
3-----------------------------------------------------------------
4-----------------------------------------------------------------
5-0------0--0---------0--0--0-------------------------------------
6-------0--0--------0---0--0--------------------------------------

guitar solo

1-12--121312-----------12/17-12----------12---12-1213------12
2-------------13---13----------13----13----15--------13--13--
3----------------14---------------14-------------------14----
4------------------------------------------------------------
5------------------------------------------------------------
6------------------------------------------------------------

1-12-12121212------12----------------------------------------
2-13-13131313-13-1313-13-15----------------------------------
3---------------------------14-------------------------------
4------------------------------------------------------------
5------------------------------------------------------------
6------------------------------------------------------------