We are the champions - Queen

two guitars arr. for one
|-------------------|-------------------|
|-------8-----9-----|-8-----11-9--------|
|-8---8---8-----8---|---8--------8------|
|---8-------8-----8-|--------------8-10-|
|-------------------|-------------------|
|-------------------|-------------------|

two guitars (left&right) arr.for one
|---------------------------------1--------------------------------|
|-8---6---------------------------1-1---1-------------6\-----------|
|-8---7---3-\-----3-------5-\-----2-----2---2-----7---7\---3---3-\-|
|-8---8---5-\-3---3-------5-\-3---------2---2-----7---7\---3---5-\-| riaaf A (1)
|-6---5---3-\-3---1-------3-\-3---------0---0---0-5---5\---1---3-\-|
|-------------1---------------1-------3----------------------------|
midle guitar
|-----1-----------------------------| |--------|
|-1-----1---------1---------3-------| |-1---3--| riff A (2)
|-2-----2-----2---2-----3---3-------| |-2---2--|
|-3-----3-----2---2-----3---3-------| |-1---0--|
|-3-----------0---0---0-1---1-0-----| |--------|
|-1-------1-3-------------------3-2-| |--------|

|-3---3---3-------------------------------1---------1--------------------------|
|-3---3---3-5---5-------3-----------------1-1-----------1------6-4-------6-----|
|-3---3---3-5---5---3---3-----------------2---2-3-----3----5-------5-------7---|
|-5---5---5-5---5---3---3---------5-\-3---------1----------6-----------------9-|
|-5---5---5-3---3---1---1---4-7-------3---------1----------6---------8---------|
|-3---3---3-3---3---------------------1---------3----------4---------6---------|
riff A (3)
|-------------|
|-------------|
|-10-10-------| riff A (4)
|--8--8-------|
|-10-10--\3---|
|--8--8---1---|

right guitar
|----------------|----------------------|----------------|------------------|
|----------------|-------------8--------|----------------|------------------|
|------------10--|----------------------|-----------10---|------------------|
|--10---8--------|--------12-8---8-12-8-|--------12-----8|-10---12----------|
|---------10-----|----------------------|----------------|-----------10-----|
|----------------|----------------------|----------------|------------------|
left guitar 
|----------------|----------------------|----------------|------------------|
|----------------|----------------------|----------------|------------------|
|----------------|----------------------|----------------|-----8-------10\--|
|-------8--------|----10---8----12------|-----10p8-------|--------12-8------|
|---------10-----|-----------10---------|-8--------8h10--|------------------|
|-8--------------|-8--------------------|----------------|-8----------------|

|-------------------|--------------------|
|---------8---9-----|-8---8-11-9---------|
|-----8-----8---8---|------------8-------|
|---8-------------8-|---8----------8-10--|
|-6-----------------|--------------------|
|-------------------|--------------------|

riff A 
|------1---------------------------------------1----------------------------|
|------1---------1-----6---6\------------------1-----1----------------------|
|------2-----2---2-----7---7\--3-3---5-5-\-----2-2---2---2---3----3---------|
|------------2---2-----7---7\--3-3---5-5-\-3-----3---2---2---3----3---------|
|-(3)--------0---0---0-5---5\--1-1---3-3-\-3-----3---0---0---1----1-0-------|
|-(1)----1-3-------------------------------1-----1-3------------------3-2---|

|-------------3----------------------------|
|-------------3---5---5--------------------|
|-----2-0-----3---5---5--------------------|
|-1-0-----5-------5---5---------------5-\--|
|---------5-------3---3---1-----4-7--------|
|---------3-------3---3--------------------|

riff A (3)

|---------|
|--8--8---|
|-10-10---|
|--8--8---|
|-10-10---|
|--8--8---|

the solos (midle guitar):
|--------------------------------||----------------------------------------|
|-b11-b11-b11-b13-r11-8----------||----------------------------------------|
|-----------------------9--------||-17b19-b19-14--17b19--------------------|
|-------------------------10-----||---------------------b19-17-15----------|
|----------------------------8---||-------------------------------17-15--\-|
|--------------------------------||----------------------------------------|

E-|---------------------------------------|
B-|---------------------------------------|
G-|----------------------12-14-15-/17-----|
D-|-12---h13r12p10h12---------------------|
A-|-----------------------------------15\-|
E-|---------------------------------------|

|------------------------------------------------------------------------------|
|------------------------------------------------------------------------------|
|-15---17---18-17---15-\5---10----------10\0--------10\---------10------10-10--|
|-------------------------------8/10---------/10-------/10-10------10----------|
|------------------------------------------------------------------------------|
|------------------------------------------------------------------------------|

|------------------------------------------|
|-13b15---b15--b15---13b15--r13p11-10------|
|-------------------------------------12-\-|
|------------------------------------------|
|------------------------------------------|
|------------------------------------------|

|------17b18-17-18-15b17--b17r15p13--15b17--b17r15p13--15b17--b17r15p13--|
|-8/15-------------------------------------------------------------------|
|------------------------------------------------------------------------|
|------------------------------------------------------------------------|
|------------------------------------------------------------------------|
|------------------------------------------------------------------------|

E-|-15b16--b16r15p13--20b22--20-18-17-----------------|
B-|-----------------------------------20-18-20--------|
G-|-------------------------------------------19-17\--|
D-|---------------------------------------------------|
A-|---------------------------------------------------|
E-|---------------------------------------------------|