Oye como va - Celia Cruz

e|-3-3--------------1-3---|
B|-----10-11-13-10--------|
G|------------------------|
D|------------------------|
A|------------------------|
E|------------------------|
Then Goes Like this
e|-3-3-3-3-3-3-3-3-3-3-3-3------3-3-3-3-3|
B|-------------------------13-13---------|
G|---------------------------------------|
D|---------------------------------------|
A|---------------------------------------|
E|---------------------------------------|
Gm          C
Oye como va
Gm                          C
Mi ritmo bueno pa goza Mulata

Gm          C
Oye como va
Gm                            C
Mi ritmo bueno pa goza Mulata

Si tu no sabes bailar
Si estas peliado con el son
Sigueme marcando el paso
Y te seguro que te va a sobroson

Voy pa la rumba la rumba la rumba
Porque me llama me llama me llama
Y necesito que suene el coro
Para que se ponga a vasilar
Y te lo digo

Oye como va
Mi ritmo bueno pa goza Mulata
Oye como va
Mi ritmo bueno pa goza Mulata

Esto se pone caliente
Esto se baila pretoa
Cuatro pasito pa frente
Y un meneito del lado

Por que la rumba la rumba la rumba
Tiene la clave la clave la clave
Ay que meterle candela al jaro
Para que suene asi como va
Te lo repito

Oye como va
Mi ritmo bueno pa goza Mulata
Oye como va
Mi ritmo bueno pa goza Mulata

Oye como va
(AY camina como chencha o no vay echa pa tra)
Oye como va
(Oye Como Va Oye Como va)
(Quimbara...)
Oye Como Va
(Como va la rumba, Como viene y va)
Oye como va como va

Y llega el negro Vicente
Y el bodegero de al lado
Que venga toda mi gente (mi gente)
Para que gozen tumbao

Por que la rumba la rumba la rumba
Tiene la clave la clave la clave
Ay que meterle candela al jaro
Para que suene asi como va
Ven suavecito

Oye como va
Mi ritmo bueno pa goza Mulata
Oye como va
Mi ritmo bueno pa goza  
Then You can do this
e|-8-5-8-5-8-5-8-5-8-5-1-3------|
B|------------------------------|
G|------------------------------|
D|------------------------------|
A|------------------------------|
E|------------------------------|
And the end can be either on chords Like a Guitar one
Gm C
Or
e|-3-3-3-3-3-3-3-3-3-3-3-3------3-3-3-3-3|
B|-------------------------13-13---------|
G|---------------------------------------|
D|---------------------------------------|
A|---------------------------------------|
E|---------------------------------------|