La senda del tiempo - Celtas Cortos

  
Main riff:

       D      A         Bm          G        A         G
E------------------------------------------------------7---7---
B---------------------------------------7-8-10----7-10---------
G------7-----------------7----------7-9------------------7-----
D--7-9------7-7------7-9---9----7-9----------------------------
A------------------9-------------------------------------------
E--------------------------------------------------------------
 
    D       A       Bm       G        D      A
E-7------------------------------------------------
B---10----7-7--------7--------------------7-8-10---
G----------------9-7---9-7---7--------7-9----------
D--------------------------9------7-9--------------
A--------------------------------------------------
E--------------------------------------------------

     G      A   D
E--------------------
B-8-7-------7--------
G-----9-7-9---9------
D---------------7----
A--------------------
E--------------------
 
The song:

MAIN RIFF

D                                            A
A veces llega un momento en que
              Bm            G
te haces viejo de repente
        D                A
sin arrugas en la frente
               Bm              G
pero con ganas de morir
       D                  A
Paseando por las calles
         Bm              G
todo tiene igual color
            D                        A
siento que algo hecho en falta
         G     A        D
no se si sera el amor

Me despierto por las noches
entre una gran confusión
esta gran melancolía
esta acabando conmigo

Siento que me vuelvo loco
me sumerjo en el alcohol
las estrellas por la noche
han perdido su esplendor

MAIN RIFF

He buscado en los desiertos
de la tierra del dolor
y no he hallado mas respuesta
que espejismos de ilusión

He hablado con las montanas
de la desaparición
y su respuesta era solo
el eco sordo de mi voz

A veces...

MAIN RIFF (TWO TIMES)